Guitar tabs Audio Tabs, guitar tablatures including audio samples with the format mp3.



Search
  Home > Tabs > A pas de géant ( Mano Solo )   Tablatures
listen print
Mano Solo
A pas de géant
(Album : Live au tourtour)
Transcription: Oliv'

1. Riff intro / Intro
e--3-----------0-----------0-----------0-----------
b--0-------0---0-------0---1-----------0-------0---
g--0---0-------0---0-------2-------2---0---0-------
d--2-----------2-----------2---2-------2-----------
a--2-----------2-----------0-----------2-----------
e--0-----------0-----------------------0-----------

e--7-----------2-----------2-----------0--------
b--8-------8---2---2-------0-----------0--------
g--9---9-------3-------3---2-----------0--------
d--9-----------4-----------1-----------2--------
a--7-----------4-----------2-----------2--------
e--------------2-----------------------0--------


2. Riff 1 / Riff 1
e--7------------------------------------------------
b----------7---8-----------5-----------0------------
g--------9---------9---8-----------5--------2---4---
d------9-------------9-----------7------------------
a--7-----------7---------------7--------------------
e--------------------------5-----------0----2---3---

e--0--------0--------2------2----------
b--1--1-----0--0-----2------0----------
g--2-----2--0-----0--3------2----------
d--2--------2--------4------1----------
a--0--------2--------4------2----------
e-----------0--------2-----------------

3. Riff 2 / Riff 2
e--7-----------------------------------------------
b----------7---8-----------5-----------0---------0-
g--------9---------9---8-----------5-----------0---
d------9-------------9-----------7-----------2-----
a--7-----------7---------------7-----------2-------
e--------------------------5-----------0-----------

e--7------------------------------------------------
b----------7---8-----------5-----------0-----0------
g--------9---------9---8-----------5------0---------
d------9-------------9-----------7------------------
a--7-----------7---------------7--------------------
e--------------------------5-----------0------------

4. Riff 3 / Riff 3
e--0--------------------------------
b--1------1--1------1--0------------
g--2----2---------2---------2----4--
d--2--2---------2-------------------
a--0---------0----------------------
e----------------------0----2----3--

e--0--------0--------2---2-2-2-0--0-0-0-0-----0---0---
b--1--1-----0-----0--0---0-0-0-0--0-0-0-0-----1---1---
g--2-----2--0--0-----2---2-2-2-1--1-1-1-1-2---2---2---
d--2--------2--------1---1-1-1-2--2-2-2-2-2---2---2---
a--0--------2--------2---2-2-2-2--2-2-2-2-0-----------
e-----------0------------------0--0-0-0-0-------------

e------0---0---2------------2-----------
b------0---0---2------------0-----------
g--0---0---0---3------------2-----------
d--2---2---2---4------------1-----------
a--2---2---2---4------------2-----------
e--0-----------2------------------------

5. Riff 4 / Riff 4
e------------------------3----------------1----2----
b------3-3-----1---------3--------3-3-----1----0----
g--4-5-4-4-5-4-2---2-4-5-4----4-5-4-4-5-4-2----2----
d--------------2---------5----------------3----1----
a--------------0---------5----------------3----2----
e--3-3-3-3---------------3----3-3-3-3-----1---------

6. Riff fin / End
e------0---0---0---------------0---0---0-----------
b------1---1---1---3---1-------1---1---1---3---1---
g------2---2---2---------------2---2---2-----------
d--------------------------------------------------
a--0-----0---0-------------0-----------------------
e--------------------------------------------------

e--------------------------------------------------
b------3---3---3---------------3---3---3-----------
g------4---4---4---5---4-------4---4---4---5---4---
d------5---5---5---------------5---5---5-----------
a--------------------------------------------------
e--3-----3---3-------------3-----3---3-------------

e------0---0---0---------------0---0---0---3---2---
b------1---1---1---3---1-------1---1---1---1---1---
g------2---2---2---------------2---2---2-----------
d--------------------------------------------------
a--0-----0---0-------------0-----------------------
e--------------------------------------------------

e----------------------2---2-2---/5---5-5--
b--7---7-7---9---9-9---1---1-1---/4---4-4--
g--8---8-8---8---8-8---2---2-2---/5---5-5--
d--9---9-9---7---7-7---1---1-1---/4---4-4--
a--9---9-9---9---9-9-----------------------
e--7---7-7---7---7-7-----------------------

e------0-2-3---0-------0-2-3---0---2~~-----2--0----
b------0-0-0-4---------0-0-0-4-----0~~-----0--0----
g----------------------------------2~~-----2--0----
d----------------------------------1~~-----1--2----
a----------------------------------2~~-----2--2----
e--0---------------0-------------------------------

7. Infos / Comments
Il s'agit de la version live au Tourtour (acoustique) de "A pas de géant".
Here is the live acoustic version at Tourtour of "A pas de géant".

Jouer les riffs dans cet ordre:
1 fois le riff d'intro ("il s'approche et me lèche...")
1 fois le riff1 ("il s'approche et s'accroche...")
1 fois le riff2 ("je regarde à la télé...")
1 fois le riff3 ("et ces petites trains de sccarabés...")
1 fois le riff2 ("la vie est un chemin d'argile...")
1 fois le riff4 ("Philipides maudit ma grande nouvelle...")
1 fois le riff de fin ("ma grande nouvelle aura changé...")

Play in this order:
once Intro ("il s'approche et me lèche...")
once riff1 ("il s'approche et s'accroche...")
once riff2 ("je regarde à la télé...")
once riff3 ("et ces petites trains de sccarabés...")
once riff2 ("la vie est un chemin d'argile...")
once riff4 ("Philipides maudit ma grande nouvelle...")
once end ("ma grande nouvelle aura changé...")
React on this tab on the forum


More Tabs at 911Tabs
Keren Ann
Nolita
Archive
Again
Bérurier Noir
Salut à toi
Georges Brassens
L'orage
La religieuse
Le gorille
Le pornographe
Le roi
Les copains d'abord
Jeff Buckley
So real
Eric Clapton
Layla
Pauline Croze
La Javanaise
The Cure
Boys don't cry
Just like heaven
Three imaginary boys
Dionysos
Death Song (Ukulele)
The Doors
People are strange
The Eagles
Hotel California (Solo)
Thomas Fersen
Borborygmes
Serge Gainsbourg
La chanson de Prévert
Jimi Hendrix
Purple haze
Loïc Lantoine
Pierrot
The Last Shadow Puppets
My mistakes were made for you
Led Zeppelin
Stairway to heaven
M (Mathieu Chedid)
Mama Sam
Nostalgic du cool
Nostalgic du cool2
Mano Solo
15 ans du matin
A pas de géant
Barbès Clichy
Janvier
La liberté
Le drapeau
Naître gitan
Pas du gâteau
Quand tu m'diras
Soir de retour
Tous les jours
Bob Marley
Redemption song
Merzhin
Messieurs dames
Mickey 3D
Ma grand-mère
Respire
Muse
Dark shines
Falling down
Unintended
Nirvana
Rape me
Smells like teen spirit
Noir Désir
Bouquet de nerfs
L'homme pressé
Tostaky
Un jour en France
Oasis
Wonderwall
Pink Floyd
Is there anybody out there
Wish you were here
The Pixies
Where is my mind
The Police
Roxanne
Portishead
Roads
Radiohead
15 step
Creep (acoustic)
Fake plastic trees
Go slowly
How to disappear completely
I might be wrong
I will
Karma police
Lucky
Paranoid android
Street spirit [fade out]
Red Hot Chili Peppers
I could have lied
REM
Losing my religion (Ukulele)
Ridan
Partie de golf
Sanseverino
La cigarette
Maigrir
Sinsemilia
Tout le bonheur du monde
Têtes Raides
Bibliothèque
Fragile
Ginette
Je chante
Les choses
Trust
Antisocial
U2
Desire
Sunday bloody sunday